domingo, 9 de março de 2014

Canoeiro

Segue a tablatura da música Canoeiro, essa tablatura é a música solada. A tablatura esta em E (Mi) mas pode ser tocada em D (Ré):

Intro:
B----------------------------------------------------
E----------------------------------------------------
G#---------------------------------------------------
B----------------------------4-2-0-------------------
E--7-7-7-7-7-7-7-7-6-5-4-2-0-------------------------

Música:
B------------------------4-4---|-0-0-0---------------
E--------------0-0-2-4-5-2-2-2-|-0-0-0---------------
G#-0-1-3-3-1-0-0-0-1-3-5-----1-|-0-0-0---------------
B--0-2-4-4-2-0-----------------|-0-0-0---------------
E------------------------------|-0-0-0---------------

B--4------------------4------------------------------
E--2-0-2-4-2-0-2-2----2-0-2-4-2-0-2-2----------------
G#---0-1-3-1-0-1-1------0-1-3-1-0-1-1----------------
B----------------------------------------------------
E----------------------------------------------------

B--4-----------------------4-2-4---------------------
E--2-0-2-7-7-7-9-7-5-4-2-0-2-0-2---------------------
G#---0-1-7-7-7-8-7-5-3-1-0---------------------------
B----------------------------------------------------
E----------------------------------------------------

B--4-------4-2-4-|-4---------------------------------
E--2-0-2-0-2-0-2-|-----------------------------------
G#---0-1-0-------|-3---------------------------------
B----------------|-----------------------------------
E----------------|-----------------------------------

B----------------------------------------------------
E--7---7---2-4-5-7-7-7-4-0---------------------------
G#-7---7---1-3-5-7-7-7-3-0---------------------------
B----------------------------------------------------
E----------------------------------------------------

)
Segue agora a cifra da música:

B7
Domingo de tardezinha eu estava meio a toa
Convidei meu companheiro pra ir pescar na lagoa
                                               E  B7 E

Levamos a rede de lance ai ai fomos pescar de canoa

Intro

B7                                        
Eu levei meus apreparos para dá uma pescada boa
Saímos cortando água na minha velha canoa
                                                E B7 E
A garça avistei de longe ai, ai chega perto ela voa

Intro

B
Fui descendo rio abaixo remando minha canoa
Eu entrei numa vazante fui sair noutra lagoa

                                                 E  B7 E
É o remanso do rio pardo ai, ai onde o pintado amontoa


Intro

B7
Pra pegar peixe dos bons dá trabalho à gente soa
Eu jogo timbó na água com isso peixe atordoa
                                               E   B7 E

Jogo a rede e dou um grito ai, ai os dourados amontoa

Intro

B7
O rio estava enchendo muito foi encostando minha canoa
Acompanhei a maré e encostei minha canoa
                                                  E B7 E

Cada remada que eu dava ai, ai dava um balanço no proa

Um comentário :

Anônimo disse...

de quem é esta musica?