domingo, 6 de julho de 2014

Bruto, Rustico e Sistemático

Segue a tablatura da música Bruto, Rustico e Sistemático, pagode interpretado por João Carreiro e Capataz.
Tablatura foi feita pelo Bruno Ribeiro e foi postada nesse grupo
www.facebook.com/groups/violacaipiratablaturas

E--------------------------------------------------------------------
B--------4--4/9--7--5--4---------------------------------------------
G#-0--3--3--3/8--7--5--3--1/2--2--3--4--5----------------------------
E--0--4-------------------1/2--2--4--5--6----------------------------
B--------------------------------------------------------------------

E------------------------------------09/11----09--7----0-5----0-5/7--
B----0--------0------0--------0------10/12----10--9----0-7----0-7/9--
G#-----7h8------7----------------------------------------------------
E----------------------7h9------7------------------------------------
B--0--------0------0--------0------0--------0--------0------0--------

Segue o vídeo explicando como tocar esse solo:




Segue a cifra da música:

D                                            E           A7
Tudo que dá na tv minha muié qué fazê não mede as consequências
Fez um tar de topless quando vi me deu um stress
                  D   A7  D
Perdi minha paciência
                                                        D7            G  D  G
Por mim faltarar o respeito, na muié eu dei um jeito, corretivo do meu modo
     A7              D                    A7                         D
No quarto deixei trancada, quinze dia aprisionada e com ela não incomodo

      A7
Aqui não
                      D
Posso até não ser simpático
D7                 G
Comigo não tem desculpa
                   D
Minha criação é chucra
A verdade ninguem furta
              A7             D  A7  D
Sou bruto, rústico e sistemático

(Viola Caipira):

( D E A7 D A7 )

D
Fim de semana passado
                        E            A7
Conheci o namorado da minha filha caçula
                                                                         D  A7  D
Achei que não deu pareia, tava de brinco na orelha e o corpo cheio de figura
Não suportei  muito tempo
                           D7         G  D  G
Nesse relacionamento eu tive que opinar
      A7           D                          A7
Sujeitinho era roqueiro não dá certo com violeiro
                 D
Nos num ia combinar

      A7
Aqui não
                      D
Posso até não ser simpático
D7                 G
Comigo não tem desculpa
                   D
Minha criação é chucra
A verdade ninguem furta
              A7             D  A7  D
Sou bruto, rústico e sistemático

(Viola Caipira):

( D E A7 D A7 )

D                                                   E             A7
Sistema que fui criado vêr dois homem abraçado pra mim era confusão
Mulher com mulher beijando
                                               D  A7  D
Dois homens se acariciando , meu deus que decepção
                                                   D7                  G  D  G
Mas nesse mundo moderno não tem errado e nem certo achar ruim é preconceito
      A7                 D                       A7
Mas não fujo à minha essencia pra mim isso é indecencia
                         D
Ninguem vai mudar meu jeito

      A7
Aqui não
                      D
Posso até não ser simpático
D7                 G
Comigo não tem desculpa
                   D
Minha criação é chucra
A verdade ninguem furta
              A7             D  A7 D
Sou bruto, rústico e sistemático

sábado, 5 de julho de 2014

Azulão do Reino Encantado

Segue a tablatura da música Azulão do Reino Encantado, uma música onde a viola faz uma batida parecida com cururu e o violão faz o ritmo Cipó Preto.
Esta tablatura foi postada nesse grupo
www.facebook.com/groups/violacaipiratablaturas


E----7\2-----------7\2-----------7\2-----------7\2----------
B-----------0/9-----------0/7-----------0/7-----------0/9---
G#----------0/8-----------0/7-----------0/7-----------0/8---
E-----------------------------------------------------------
B--0------0------0------0------0------0------0------0-------

E----7\2------------------------------------------------0---
B-----------0/9--9-7------------------------------------0---
G#----------0/8--8-7-8-7----7-8^7----7-3----3-1----1-0--0---
E--------------------9-7----7-9^7----7-4----4-2----2-0--0---
B--0------0---------------0--------0------0------0------0---

E---0-------------0-----------------------------------------
B---0-------------0-----------------------------------------
G#--0-------------0-----------------------------------------
E---0--2-2-4-2-0--0-----------------------------------------
B---0--4-4-2-4-0--0-----------------------------------------

Segue a cifra 

E                                                   B7 E
Eu já consertei relógio a meia noite no fundo d'água
                                                B7  B7 A B7
Sem levantar o tapete com muita classe tirei o taco
                                                        B7 A B7
Eu já ganhei uma guerra sem dar um tiro e não é mentira
                                                    E   B7 E
Já fui no fundo da terra e voltei de lá sem fazer buraco

( E B7 )
                                                     B7 E
Aprendi fazer colar só de pingo d'água e ficou bonito
                                                   B7   B7 A B7
Eu fiz um laço de areia pra laçar bicho que não é fraco
                                                 B7 A B7
Amarrei onça no mato com reza brava ficou segura
                                                      E  B7 E
Carreguei ferro em brasa tição de fogo dentro de um saco

( E B7 )
                                                B7 E
Topei uma corriola só de bandidos com pau e faca
                                              B7   B7 A B7
Foi uma nuvem de poeira fiz a madeira virar cavaco
                                                      B7 A B7
Eu transformei o meu braço em uma espada que só tinia
                                                  E   B7 E
Arrebentei tantas facas veio a policia varrer os caco

( E B7 )
                                                        B7 E
Caminhei por baixo d'água igual um peixe e não sei nadar
                                                 B7   B7 A B7
Caminho que ninguém passa passo correndo e não empaco
                                                      B7 A B7
Já fiz a barba do leão sem usar sabão e sem a navalha
                                             E     B7 E
Com a jamanta correndo troco pneu sem usar macaco

( E B7 )
                                                     B7 E
O meu protetor é forte é o azulão do reino encantado
                                               B7  B7 A B7
Um salão todo azulado que tem no céu ele foi morar
                                                    B7 A B7
E com sete santas virgens neste salão o azulão está
                                              E  B7 E

E duas vezes por dia este salão Deus vai visitar

sexta-feira, 4 de julho de 2014

Em Tempo de Avanço

Segue a tablatura da música Em Tempo de Avanço, onde o começa com ritmo Cateretê e depois Pagode. 
Tablatura foi postada nesse grupo www.facebook.com/groups/violacaipiratablaturas Obs: <12> significa harmônico na casa 12


INTRO
E--------------------3-5-0------------------------------
B---9-7--------------3-4-0------------------------------
G#--8-7-8-7-5-3-1-0--3-3-0------------------------------
E-------9-7-5-4-2-0--3-2-0------------------------------
B--------------------3-0-0------------------------------

O destino aqui me trouxe
E--2-4-5-7-7-7/09-5-4-----------------------------------
B--4-5-7-9-9-9/10-7-5-----------------------------------
G#------------------------------------------------------
E-------------------------------------------------------
B-------------------------------------------------------

Cantar pra vocês eu vou
E---7-5-4---4-----7-------------------------------------
B---------7---7-5---------------------------------------
G#------------------------------------------------------
E-------------------------------------------------------
B-------------------------------------------------------

Eu so trouxe coisa boa
E--2-4-5-7-7-7/09-5-4-----------------------------------
B--4-5-7-9-9-9/10-7-5-----------------------------------
G#------------------------------------------------------
E-------------------------------------------------------
B-------------------------------------------------------

         G     B7    E
Foi meu sertão quem mandou

F#                  B7     F#              B7
No lugar que tem tristeza, eu vou levar alegria
F#                B7          F#          B7
Vou levar sinceridade, onde existe hipocrisia
E                    B7                      E
No lugar que tem mentira, eu vou levar a verdade
                  B7                      E
Vou levar amor sincero, onde existe falsidade
F#              B7                        E
Quando eu daqui sair, vocês vão sentir saudades


E----10----10-09^10^09----------10----10-09^10^09----09-09^10^09--------
B-----------------------<12>--------------------------------------<12>--
G#----------------------<12>--------------------------------------<12>--
E-----------------------<12>--------------------------------------<12>--
B--0-----0--------------------0-----0--------------0--------------------

E----10----10-09^10^09----09-09^10^09----------7----7-5----5-5^7^5--------
B--------------------------------------<12>-------------------------<12>--
G#-------------------------------------<12>-------------------------<12>--
E--------------------------------------<12>-------------------------<12>--
B--0-----0--------------0--------------------0----0------0----------------

E----7----7-5----5-5^7^5-----------------
B-------------------------<12>-----------
G#------------------------<12>-----------
E-------------------------<12>-----------
B--0----0------0-------------------------

E------------------------------------------------------
B----0------------0------------0------------0----------
G#-------7-5-3--------7-5-3--------3-1-0--------3-1-0--
E--------7-5-4--------7-5-4--------4-2-0--------4-2-0--
B--0---5--------0---5--------0---4--------0---4--------

A
A terra hoje balança, vou aguenta o balanço
Quem espera sempre alcança, eu espero e não me canso
B7                  E     B7                E
Cantando a gente avança, pra depois ter descanço
B7                     E      B7                   E
Cheguei trazendo esperança, cantando em tempo de avanço


E----10----10-09^10^09----------10----10-09^10^09----09-09^10^09--------
B-----------------------<12>--------------------------------------<12>--
G#----------------------<12>--------------------------------------<12>--
E-----------------------<12>--------------------------------------<12>--
B--0-----0--------------------0-----0--------------0--------------------

E----10----10-09^10^09----09-09^10^09----------7----7-5----5-5^7^5--------
B--------------------------------------<12>-------------------------<12>--
G#-------------------------------------<12>-------------------------<12>--
E--------------------------------------<12>-------------------------<12>--
B--0-----0--------------0--------------------0----0------0----------------

E----7----7-5----5-5^7^5-----------------
B-------------------------<12>-----------
G#------------------------<12>-----------
E-------------------------<12>-----------
B--0----0------0-------------------------

E------------------------------------------------------
B----0------------0------------0------------0----------
G#-------7-5-3--------7-5-3--------3-1-0--------3-1-0--
E--------7-5-4--------7-5-4--------4-2-0--------4-2-0--
B--0---5--------0---5--------0---4--------0---4--------

Vou soltar o inocente
E--2-4-5-7-7-7/09-5-4-----------------------------------
B--4-5-7-9-9-9/10-7-5-----------------------------------
G#------------------------------------------------------
E-------------------------------------------------------
B-------------------------------------------------------

Não tem culpa quem prendeu
E---7-5-4---4-----7-------------------------------------
B---------7---7-5---------------------------------------
G#------------------------------------------------------
E-------------------------------------------------------
B-------------------------------------------------------

Vou castigar quem matou 
E--2-4-5-7-7-7/09-5-4-----------------------------------
B--4-5-7-9-9-9/10-7-5-----------------------------------
G#------------------------------------------------------
E-------------------------------------------------------
B-------------------------------------------------------

              G   B7   E
Vou rezar pra quem morreu

F#                  B7     F#             B7
Vou defender quem apanha, bater em quem bateu
  F#                  B7      F#                 B7
Vou tomar de quem roubou, tirando o que não é seu
E                   B7                          E
Vou joga com quem ganhou, vou ganha pra quem perdeu
                   B7                          E
E pra quem não tem nada, vou dar o que deus me deu
F#                    B7                        E
Se eu der tudo o que tenho, não acaba o que é meu


E----10----10-09^10^09----------10----10-09^10^09----09-09^10^09--------
B-----------------------<12>--------------------------------------<12>--
G#----------------------<12>--------------------------------------<12>--
E-----------------------<12>--------------------------------------<12>--
B--0-----0--------------------0-----0--------------0--------------------

E----10----10-09^10^09----09-09^10^09----------7----7-5----5-5^7^5--------
B--------------------------------------<12>-------------------------<12>--
G#-------------------------------------<12>-------------------------<12>--
E--------------------------------------<12>-------------------------<12>--
B--0-----0--------------0--------------------0----0------0----------------

E----7----7-5----5-5^7^5-----------------
B-------------------------<12>-----------
G#------------------------<12>-----------
E-------------------------<12>-----------
B--0----0------0-------------------------

E------------------------------------------------------
B----0------------0------------0------------0----------
G#-------7-5-3--------7-5-3--------3-1-0--------3-1-0--
E--------7-5-4--------7-5-4--------4-2-0--------4-2-0--
B--0---5--------0---5--------0---4--------0---4--------

A
A terra hoje balança, vou aguenta o balanço
Quem espera sempre alcança, eu espero e não me canso
B7                  E     B7                E
Cantando a gente avança, pra depois ter descanço
B7                     E      B7                   E
Cheguei trazendo esperança, cantando em tempo de avanço


E----10----10-09^10^09----------10----10-09^10^09----09-09^10^09--------
B-----------------------<12>--------------------------------------<12>--
G#----------------------<12>--------------------------------------<12>--
E-----------------------<12>--------------------------------------<12>--
B--0-----0--------------------0-----0--------------0--------------------

E----10----10-09^10^09----09-09^10^09----------7----7-5----5-5^7^5--------
B--------------------------------------<12>-------------------------<12>--
G#-------------------------------------<12>-------------------------<12>--
E--------------------------------------<12>-------------------------<12>--
B--0-----0--------------0--------------------0----0------0----------------

E----7----7-5----5-5^7^5-----------------
B-------------------------<12>-----------
G#------------------------<12>-----------
E-------------------------<12>-----------
B--0----0------0-------------------------

E------------------------------------------------------
B----0------------0------------0------------0----------
G#-------7-5-3--------7-5-3--------3-1-0--------3-1-0--
E--------7-5-4--------7-5-4--------4-2-0--------4-2-0--
B--0---5--------0---5--------0---4--------0---4--------


quinta-feira, 19 de junho de 2014

Abre o Olho Concorrência

Tablatura da música Abre o Olho Concorrência, um pagode interpretado por João Carreiro e Capataz.

Viola em D

D|-------------------------------|---/11----11----5-7|
A|----0-------0---------0--------|---/12----12----7-9|
F#|-7---7-8-7--------------------|-------------------|
D|---------------9-7/2----2------|-------------------|
A|---------------------------5-4~|-0------0-----0----|

D|--------------------------------------|
A|----0-------0---------0---------------|
F#|-7---7-8-7----------------1p0--1/3~--|
D|---------------9-7/2----2-------------|
A|------------------------------~-------|

D|------/11----11-----7--12--12------|
A|------/12----12-----9--9---12------|
F#|--------------------------12------|
D|---------------------------12------|
A|--0--------0-----0---------12(hm)--|

Cifra da música:

 E
Se tratando de pagode
        B7             E   ( B7 E )
de ninguém eu tenho medo;

Canto com a voz macia
                    B7      ( B7 E )
e sou ligeiro nos dedos;

Pra compor moda bonita

não vejo nenhum segredo;
  E
Trago Deus no coração
                  B7
canto com amor e paixão
                  E
pro meu povo sertanejo;

(refrão)
 F#
Humildade vem de berço
                    B7
tá no sangue, tá na raça;
 E
Abre o olho concorrência
 B7                 E    ( E B7 )
tem sangue novo na praça;

 E
Meu talento incomoda
        B7              E    ( B7 E )
traz inveja a muita gente
 E
que usa do jogo sujo
                     B7
pra poder ficar na frente;

Não me preocupo com pouco

só penso em trabalhar,
 E
dois ou três gatos pingados
                   B7
com inveja e mal olhado,
                       E     ( B7 E )
não conseguem me derrubar;

(refrão)
 F#
Humildade vem de berço
                    B7
tá no sangue, tá na raça;
 E
Abre o olho concorrência
 B7                 E    ( B7 E )
tem sangue novo na praça;

 E
O dom foi Deus que me deu
     B7          E   ( B7 E )
só ele pode tirar;
 E
As pedras no meu caminho
                  B7
não me deixa tropeçar;

Agradeço todo dia

por esse dom de cantar,
E
E não vivo preocupado
                       B7
pois tenho Deus do meu lado
                   E
pra quando eu precisar;

(refrão)
 F#
Humildade vem de berço
                    B7
tá no sangue, tá na raça;
 E
Abre o olho concorrência
 B7                 E    ( B7 E )
tem sangue novo na praça;

Faca que Não Corta

Tablatura da música Faca que Não Corta, um pagode interpretado por Tião Carreiro e Pardinho. Tablatura transcrita por Luizinho da Viola e foi postada nesse grupo www.facebook.com/groups/violacaipiratablaturas

D--0------------------------------------------------------------------------7--
A--0------0--------0--------0--------0--------0--------0--------------------7--
F#-0------------------------------------------------------------------------7--
D--0----2------4-5------4-2------4-5------4-2------4-5------4-2/7-7-7----2--7--
A--0--0------0--------0--------0--------0--------0--------0------------0----7--

D----11----0--9----0-7----0-4----0-7----0-5----0--0--
A----12----0-10----0-9----0-5----0-9----0-7----0--0--
F#------------------------------------------------0--
D-------------------------------------------------0--
A--0-----0-------0------0------0------0------0----0--

Segue a cifra da música:

G          D  G
Viola que não presta
A             D
Faca que não corta
         A               D
Se eu perder, pouco me importa

D
O cabo da minha enxada era um cabo bacana
                 A
Não era de guatambu, era de cana caiana
    G                  D
Um dia lá na roça, me deu sede toda hora
                   A                       D
Chupei o cabo da enxada e joguei a enxada fora

G           D  G
Enxada que não presta
A             D
Faca que não corta
         A               D
Se eu perder, pouco me importa

D
Corri atrás de uma onça, Preparando pra atirar
                    A
Do estado de São Paulo atravessou pro Paraná
  G                     D
A caça que eu atiro eu juro que não escapa
                  A                        D
A cartucheira falhou eu peguei a onça no tapa

G                D  G
Cartucheira que não presta
A             D
Faca que não corta
         A               D
Se eu perder, pouco me importa

D
Peguei o meu dinheiro emprestei prum camarada
                A
O sujeitinho sumiu, nem dinheiro e, nem mais nada
G                   D
Dinheiro emprestado é um grande perigo
                     A                       D
A gente perde o dinheiro e também perde o amigo

G          D  G
Amigo que não presta
A             D
Faca que não corta
         A               D
Se eu perder, pouco me importa

D
A fazenda do meu sogro faz divisa com a minha,
                  A
Presente de casamento, ele me deu pois eu não tinha.
G                      D
Com esse casamento fiquei rico de repente.
                   A                        D
Casei com sua fazenda trouxe a moça de presente.

G              D  G
Casamento que não presta
A             D
Faca que não corta
         A               D

Se eu perder, pouco me importa

terça-feira, 17 de junho de 2014

O Mineiro e o Italiano - D (Ré) e E (Mi)


Tablatura O Mineiro e o Italiano, há duas tablaturas abaixo, você pode optar por aprender as duas ou qualquer uma.

D------------------------------------------------------------------------------
A----0-------0-------0-------0-------0-------0-------0-------0-----------------
F#-----15------13------15------12------13------10------12------8---------------
D------------------------------------------------------------------------------
A--0-------0-------0-------0-------0-------0-------0-------0-------------------

D------------------------------------------------------------------------------
A----0-------0------0------0------0-------0------0------0------0---------------
F#-----10------0------7------8------10------0------7------8------7-------------
D------------------------------------------------------------------------------
A--0-------0------0------0------0-------0------0------0------0-----------------

D------------------------------------------------------------------------------
A----0------0------0------0------0------0------0------0------0-----0------0----
F#-----5------7------3------5------1------3------0------1------------0---------
D--------------------------------------------------------------2------------0--
A--0------0------0------0------0------0------0------0------0------0-----0------

MUSICA

D-----------------------------------------------------------------
A---------------7-------------------------------------------------
F#-8--8-8--7-8--7-8--8--5-5--3-5--5--3-5-7--5--7--7--7-7--7-------
D--9--9-9--7-9----9--9--5-5--4-5--5--4-5-7--5--7--7--7-7--7-------
A-----------------------------------------------------------------

D-----------------------------------------------------------------
A-----------------------------------------------------------------
F#-8-7--7--7-7--5-3--3-1-7--5--3--0--0--0-0--0--0----------3------
D--9-7--7--7-7--5-4--4-2-7--5--4--0--0--0-0--0--0--2--2--2-4--4---
A--------------------------------------------------4--0--0----5---

D-----------------------------------------------------------------
A-----------------------------------------------------------------
F#-1--1--1-5--5--3--3/7--7-7--7-7--5--5-5-5--5-3--3--3-3--3-0-----
D--2--2--2-5--5--4--4/7--7-7--7-7--5--5-5-5--5-4--4--4-4--4-0-----
A-----------------------------------------------------------------

D-----------------------------------------------------------------
A-----------------------------------------------------------------
F#-1--1--1--1-1--0-1--1-1-5--0--3--3-3--1--1-0--------------------
D--2--2--2--2-2--0-2--2-2-5--0--4--4-4--2--2-0--------------------
A-----------------------------------------------------------------

OU ENTÃO

(intro)
  E|------------------------------------------------------------------------
  B|----0------0------0------0------0------0------0------0------0------0----
G#|------15-----13-----15-----12-----13-----10-----12-----8------10-----0--
E|------------------------------------------------------------------------
  B|--0------0------0------0------0------0------0------0------0------0------

E|------------------------------------------------------------------------
B|---0------0------0-------0------0------0------0------0------0------0----
G#|-----7------8------10------0------7------8------7-------------7---------
E|-------------------------------------------------------9-------------7--
B|-0------0------0-------0------0------0------0------0------0------0------

E|------------------------------------------------------------------------
B|---0------0------0------0------0------0------0------0-------------------
G#|------------------------------------------------------------------------
E|-----9------5------7------4------5------2------4------0-----------------
  B|-0------0------0------0------0------0------0------0---------------------

  (verso 1)
  E|-----------------------------------------
  B|--2/5-5-5-5-5-5-6-5-5-4-4-2-2-2-2-2-4-2--
G#|--1/5-5-5-5-5-5-6-5-5-3-3-1-1-1-1-1-3-1--
  E|-----------------------------------------
  B|-----------------------------------------

(verso 2)
E|---------------------------------------
  B|--2/4-4-4-4-4-5-4-4-4-4-2-0-0-0-4-4-0--
G#|--1/3-3-3-3-3-5-3-3-3-3-1-0-0-0-3-3-0--
  E|---------------------------------------
  B|---------------------------------------

(verso 3)
E|-------------------------------------
B|------------------------------4-4-4--
G#|--0-0-0-0-3-3-0-0-0-3-3-1-1-1-3-3-3--
E|--0-0-0-0-4-4-0-0-0-4-4-2-2-2--------
B|-------------------------------------

(verso 4)
E|---------------------------------------
B|--4/7-7-7-7-7-5-4-4-4-4-2-0-0-0--------
G#|--3/7-7-7-7-7-5-3-3-3-3-1-0-0-0-1-1-0--
E|--------------------------------2-2-0--
B|---------------------------------------

(verso 5)
E|----------------------------------------
B|------------2-4-4-4-4/5--2-0-0-0--------
G#|--2-2-2-2-3-2-3-3-3-3/5--1-0-0-0-1-1-0--
E|--2-2-2-2-4----------------------2-2-0--
B|----------------------------------------


(1) o mineiro e o italiano, viviam as barras dos tribunais
(2) por uma demanda de terra, que não deixava os dois em paz
(3) só de pensar na derrota, o pobre caboclo não dormia mais
(4) o italiano roncava, nem que eu gaste alguns capitais
(5) quero ver esse mineiro voltar de a pé, pra minas gerais

(1) voltar de a pé, pro mineiro, seria feio pros seus parentes
(2) apelou para o advogado, fale pro juiz pra ter dó da gente
(3) diga que nós somos pobres, que meus filhinhos vivem doentes
(4) um palmo de terra a mais, para o italiano é indiferente
(5) se o juiz me ajudar a ganhar, lhe dou uma leitoa de presente

(1) retrucou o advogado, o senhor não sabe o que esta falando
(2) não caia nessa besteira, se não nos vamos entrar pro cano
(3) esse juiz é uma fera, caboclo serio e de tutano
(4) paulista da velha guarda, família de 400 anos
(5) mandar leitoa para ele, é dar a vitória pro italiano

(1) porem, chegou o grande dia, que o tribunal deu o veredicto
(2) mineiro ganhou a demanda, o advogado achou esquisito
(3) mineiro disse ao doutor, eu fiz conforme lhe havia dito
(4) respondeu o advogado, que o juiz vendeu e eu não acredito
(5) jogo meu diploma fora, se nesse angu não tiver mosquito

(1) de fato, falou o mineiro, nem mesmo eu to acreditando
(2) ver meus filhinhos de a pé, meu coração vivia sangrando
(3) peguei uma leitoa gorda, foi deus do céu, que me deu esse plano
(4) de uma cidade vizinha, para o juiz eu fui despachando
(5) só não mandei no meu nome, mandei no nome do italiano.