domingo, 15 de junho de 2014

Leite de Onça

Segue a tablatura da música Leite de Onça.
Tablatura transcrita por Luizinho da Viola e foi postado nesse grupo www.facebook.com/groups/violacaipiratablaturas .
Ele retirou essa tablatura deste vídeo:



D--------------------------------------------------------
A------0------0--------0------0------0------0------0-----
F#-------------------------------------------------------
D--2/7------7------2/7------2------7------2------7-------
A---------0------0--------0------0------0------0---------

D--------------------------------------------------------
A---------0--------0-----7-0--------0--------------------
F#------7-------7-----7----------5-----------------------
D--2/7-------7----------------7--------------------------
A--------------------------------------------------------
Harm
D-------------------------------------------------12-----
A-------------0--5^0------------------------------12-----
F#-3^0-----3-------------1^0----------------------12-----
D-------4-------------2-------2^0-----------------12-----
A----------------------------------4--0--2--4--5--12-----

Segue a cifra da música:

E7               A         B7           E 
Eu resolvi enfrentar o inimigo que me ataca 
 B7                E         B7             E 
Vou fazer minha justiça sem revolver e sem faca 
              B7       F#                    B7 ( B A B) 
Tirei o leite da onça vou tirar o leite da vaca 
 E                       E7                   A           B7           E 
Cobri o sol com peneira bebi pinga o noite inteira e não fiquei de ressaca. 

Solo: 

E7    A              B7                   E 
Não sofro de dor de dente não carrego desaforo 
B7                 E           B7               E 
No dia em que eu morrer quero festa em vez de choro 
              B7        F#               B7  ( B A B) 
Tem gente que da a vida por uma joia de ouro 
 E                     E7   A                   B7                     E 
Isto é uma coisa rara quem tem vergonha na cara já tem um grande tesouro. 

Solo 

E7                A           B7          E 
Comi arroz com feijão sem um pingo de gordura 
B7            E         B7              E 
Uma cobra cascavel foi minha melhor mistura 
          B7    F#                   B7  ( B A B ) 
O almoço que eu fiz estava uma gostosura 
 E                        E7            A        B7         E 
Sobremesa eu fiz de mel a preza da cascavel palitei a dentadura. 

Solo 

E7                   A       B7           E 
Fui escravo há muito tempo agora virei senhor 
B7               E       B7             E 
O chicote que apanhei batendo com ele estou 
             B7       F#              B7 ( B A B ) 
Bebi o caldo da cana joguei o bagaço fora 
 E                         E7            A           B7          E 
Encontrei o que perdi apanhando eu aprendi bater com meu bato agora.

Um comentário :

shyco loppes Reis disse...

Gostei show que bom precisamos do apoio pra Villa não morrer