domingo, 1 de fevereiro de 2015

Iron Man - Black Sabbath

Tablatura do solo que o Jean F. Dutra fez da música Iron Man da banda de Rock a Black Sabbath.

Pessoal, esse é um solo de música de rock na viola e quem não gostar desse tipo de "transação" do rock para a viola basta apenas ignorar a tablatura.


---------------------------------------
---------------------------------------
---------------------------------------
--------0-0----3-2--3-2--3-2------0-0--
-0-3--3-----------------------3-3------

--------------------------------
--------------------------------
------------2-1-1-1------1-1-1--
-----0---------------0-4--------
-0-0----0-0---------------------

---------------------
---------------------
------------2-1-1-1--
-----0---------------
-0-0----0-0----------

3 comentários :

Igor Vicente disse...

viola nao e guitarra

Tito Sanches disse...

achei muito interessante bem sacada a ideia d se trazer esse ritimo a viola pois sempre vemos instrumentista e violeiros como Marcus Biancardini, Wilson Teixeira e até Almir Sater tocando musicas em estilo fingerstyle e fica muito bom o trabalho deles como o Marcus disse numa entrevista certa vez a viola é eclética toca de tudo e tem a vantagem de imitar vários instrumentos e ritmos é um instrumento muito versátil parabém se tiver mais tablatura do tipo fingerstyle será ótimo!

Tito Sanches disse...

Á aproposito me esqueci de dizer que Wilson Teixeira toca musicas como Cocaine- Eric Clapton Pink Floid, Ozzy Osbourne, The Police, Iron Maiden, Nirvana, AC-DC, Dire Straits, sem perder de vista o charme e os encanto do sertanejo raiz, o sertanejo mpb e o sertanejo fingerstyle ou instrumental como alguns preferem chamar.