segunda-feira, 26 de janeiro de 2009

RIO PEQUENO

Olá Violeiros, aí vai mais uma moda de viola: RIO PEQUENO de Tonico e Tinoco.
Uma composição Tonico e João Merlini. Também é fácil de tocar.
É só usar a mesma teoria das outras modas de viola postadas aqui.
Cada linha da tablatura corresponde a uma linha cantada de cada verso:

RIO PEQUENO
Composição: Tonico e João Merlini

E----------------------------------------
B-----------5-4-5-5---2-2-0---4-5-4-4----
G#--0-0-1-3-5-3-5-5---1-1-0-1-3-5-3-3---- I
E---0-0-2-4-----------------2------------
B----------------------------------------

E----------------------------------------
B-----------2-0-2-2----------------------
G#--3-3-1-0-1-0-1-1---3-3-1-0-3-1-3-3---- II
E---4-4-2-0-----------4-4-2-0-4-2-4-4----
B----------------------------------------

E-----------------------------------7-7---7-7----7---
B-----------------------------------7-7---7-7----7---
G#--2-2-2---------------------------7-7/8—7-7/8--7--- III
E---2-2-2-2-2-2-0-0--2-4-2-2--------7-7/9-7-7/9—-7---
B---------4-4-4-2-2--4-5-4-4-2-0-0--7-7----------7---

E--------------------------------------
B--------------------------------------
G#---7-8-7-7-3-3-1-1---3-5-3-3-0-0-0--- IV
E----7-9-7-7-4-4-2-2---4-5-4-4-0-0-0---
B--------------------------------------


E------------------------------------0-0-------0--
B------------------------------------0-0-------0--
G#--3-3-3-3-1-3-5-5---3-1-0---1-0-0--0-0----1--0-- V
E---4-4-4-4-2-4-5-5---4-2-0-2-2-0-0--0-0--2-2—-0--
B---------------------------4--------0-0--4-—--0--


Eu arriei meu cavalo, quando estava escurecendo (I)
Pra roubar uma moreninha, pras bandas do rio pequeno (II)
Eu cheguei na casa dela, meia noite mais ou menos (III)
Ela já tava esperando, na hora que nóis marquemos (IV)
O seu cabelo brilhava, molhadinho de sereno (V)



É só seguir o mesmo com os demais versos. A Letra inteira você pode encontrar AQUI.O Blog está aberto para criticas, correções e sugestões. Seu comentário e opinião serão muito bem vindos. Qualquer dúvida só entrar em contato pelo e-mail violeiro.diego@gmail.com

Abraços Violeiros e até a próxima

Um comentário :

Renato Mendes disse...
Este comentário foi removido pelo autor.